  0
SECTION
  2
HEADER
  9
$ACADVER
  1
AC1015
  9
$ACADMAINTVER
 70
     6
  9
$DWGCODEPAGE
  3
ANSI_1254
  9
$INSBASE
 10
0.0
 20
0.0
 30
0.0
  9
$EXTMIN
 10
0.0
 20
0.0
 30
0.0
  9
$EXTMAX
 10
279.4
 20
215.9
 30
0.0
  9
$LIMMIN
 10
0.0
 20
0.0
  9
$LIMMAX
 10
279.4
 20
215.9
  9
$ORTHOMODE
 70
     0
  9
$REGENMODE
 70
     1
  9
$FILLMODE
 70
     1
  9
$QTEXTMODE
 70
     0
  9
$MIRRTEXT
 70
     1
  9
$LTSCALE
 40
1.0
  9
$ATTMODE
 70
     1
  9
$TEXTSIZE
 40
3.5
  9
$TRACEWID
 40
1.0
  9
$TEXTSTYLE
  7
Standard
  9
$CLAYER
  8
0
  9
$CELTYPE
  6
ByLayer
  9
$CECOLOR
 62
   256
  9
$CELTSCALE
 40
1.0
  9
$DISPSILH
 70
     0
  9
$DIMSCALE
 40
1.0
  9
$DIMASZ
 40
3.5
  9
$DIMEXO
 40
1.0
  9
$DIMDLI
 40
3.75
  9
$DIMRND
 40
0.0
  9
$DIMDLE
 40
0.0
  9
$DIMEXE
 40
1.0
  9
$DIMTP
 40
0.0
  9
$DIMTM
 40
0.0
  9
$DIMTXT
 40
3.5
  9
$DIMCEN
 40
2.5
  9
$DIMTSZ
 40
0.0
  9
$DIMTOL
 70
     0
  9
$DIMLIM
 70
     0
  9
$DIMTIH
 70
     1
  9
$DIMTOH
 70
     1
  9
$DIMSE1
 70
     0
  9
$DIMSE2
 70
     0
  9
$DIMTAD
 70
     1
  9
$DIMZIN
 70
     0
  9
$DIMBLK
  1

  9
$DIMASO
 70
     1
  9
$DIMSHO
 70
     1
  9
$DIMPOST
  1

  9
$DIMAPOST
  1

  9
$DIMALT
 70
     0
  9
$DIMALTD
 70
     3
  9
$DIMALTF
 40
0.0393700787
  9
$DIMLFAC
 40
1.0
  9
$DIMTOFL
 70
     1
  9
$DIMTVP
 40
0.0
  9
$DIMTIX
 70
     0
  9
$DIMSOXD
 70
     0
  9
$DIMSAH
 70
     0
  9
$DIMBLK1
  1

  9
$DIMBLK2
  1

  9
$DIMSTYLE
  2
ISO-25
  9
$DIMCLRD
 70
     0
  9
$DIMCLRE
 70
     0
  9
$DIMCLRT
 70
     0
  9
$DIMTFAC
 40
1.0
  9
$DIMGAP
 40
1.524
  9
$DIMJUST
 70
     0
  9
$DIMSD1
 70
     0
  9
$DIMSD2
 70
     0
  9
$DIMTOLJ
 70
     0
  9
$DIMTZIN
 70
     0
  9
$DIMALTZ
 70
     0
  9
$DIMALTTZ
 70
     0
  9
$DIMUPT
 70
     0
  9
$DIMDEC
 70
     2
  9
$DIMTDEC
 70
     2
  9
$DIMALTU
 70
     2
  9
$DIMALTTD
 70
     3
  9
$DIMTXSTY
  7
Standard
  9
$DIMAUNIT
 70
     0
  9
$DIMADEC
 70
     2
  9
$DIMALTRND
 40
0.0
  9
$DIMAZIN
 70
     0
  9
$DIMDSEP
 70
    44
  9
$DIMATFIT
 70
     3
  9
$DIMFRAC
 70
     0
  9
$DIMLDRBLK
  1

  9
$DIMLUNIT
 70
     2
  9
$DIMLWD
 70
    -2
  9
$DIMLWE
 70
    -2
  9
$DIMTMOVE
 70
     0
  9
$LUNITS
 70
     2
  9
$LUPREC
 70
     2
  9
$SKETCHINC
 40
1.0
  9
$FILLETRAD
 40
10.0
  9
$AUNITS
 70
     0
  9
$AUPREC
 70
     2
  9
$MENU
  1
.
  9
$ELEVATION
 40
0.0
  9
$PELEVATION
 40
0.0
  9
$THICKNESS
 40
0.0
  9
$LIMCHECK
 70
     0
  9
$CHAMFERA
 40
0.0
  9
$CHAMFERB
 40
0.0
  9
$CHAMFERC
 40
0.0
  9
$CHAMFERD
 40
0.0
  9
$SKPOLY
 70
     0
  9
$TDCREATE
 40
2458985.651290891
  9
$TDUCREATE
 40
2458985.526290891
  9
$TDUPDATE
 40
2458985.651291204
  9
$TDUUPDATE
 40
2458985.526291204
  9
$TDINDWG
 40
0.0000000116
  9
$TDUSRTIMER
 40
0.0000000116
  9
$USRTIMER
 70
     1
  9
$ANGBASE
 50
0.0
  9
$ANGDIR
 70
     0
  9
$PDMODE
 70
     0
  9
$PDSIZE
 40
-1.0
  9
$PLINEWID
 40
0.0
  9
$SPLFRAME
 70
     0
  9
$SPLINETYPE
 70
     6
  9
$SPLINESEGS
 70
     8
  9
$HANDSEED
  5
BF
  9
$SURFTAB1
 70
     6
  9
$SURFTAB2
 70
     6
  9
$SURFTYPE
 70
     6
  9
$SURFU
 70
     6
  9
$SURFV
 70
     6
  9
$UCSBASE
  2

  9
$UCSNAME
  2

  9
$UCSORG
 10
0.0
 20
0.0
 30
0.0
  9
$UCSXDIR
 10
1.0
 20
0.0
 30
0.0
  9
$UCSYDIR
 10
0.0
 20
1.0
 30
0.0
  9
$UCSORTHOREF
  2

  9
$UCSORTHOVIEW
 70
     0
  9
$UCSORGTOP
 10
0.0
 20
0.0
 30
0.0
  9
$UCSORGBOTTOM
 10
0.0
 20
0.0
 30
0.0
  9
$UCSORGLEFT
 10
0.0
 20
0.0
 30
0.0
  9
$UCSORGRIGHT
 10
0.0
 20
0.0
 30
0.0
  9
$UCSORGFRONT
 10
0.0
 20
0.0
 30
0.0
  9
$UCSORGBACK
 10
0.0
 20
0.0
 30
0.0
  9
$PUCSBASE
  2

  9
$PUCSNAME
  2

  9
$PUCSORG
 10
0.0
 20
0.0
 30
0.0
  9
$PUCSXDIR
 10
1.0
 20
0.0
 30
0.0
  9
$PUCSYDIR
 10
0.0
 20
1.0
 30
0.0
  9
$PUCSORTHOREF
  2

  9
$PUCSORTHOVIEW
 70
     0
  9
$PUCSORGTOP
 10
0.0
 20
0.0
 30
0.0
  9
$PUCSORGBOTTOM
 10
0.0
 20
0.0
 30
0.0
  9
$PUCSORGLEFT
 10
0.0
 20
0.0
 30
0.0
  9
$PUCSORGRIGHT
 10
0.0
 20
0.0
 30
0.0
  9
$PUCSORGFRONT
 10
0.0
 20
0.0
 30
0.0
  9
$PUCSORGBACK
 10
0.0
 20
0.0
 30
0.0
  9
$USERI1
 70
     0
  9
$USERI2
 70
     0
  9
$USERI3
 70
     0
  9
$USERI4
 70
     0
  9
$USERI5
 70
     0
  9
$USERR1
 40
0.0
  9
$USERR2
 40
0.0
  9
$USERR3
 40
0.0
  9
$USERR4
 40
0.0
  9
$USERR5
 40
0.0
  9
$WORLDVIEW
 70
     1
  9
$SHADEDGE
 70
     3
  9
$SHADEDIF
 70
    70
  9
$TILEMODE
 70
     1
  9
$MAXACTVP
 70
    64
  9
$PINSBASE
 10
0.0
 20
0.0
 30
0.0
  9
$PLIMCHECK
 70
     0
  9
$PEXTMIN
 10
1.0000000000E+20
 20
1.0000000000E+20
 30
1.0000000000E+20
  9
$PEXTMAX
 10
-1.0000000000E+20
 20
-1.0000000000E+20
 30
-1.0000000000E+20
  9
$PLIMMIN
 10
0.0
 20
0.0
  9
$PLIMMAX
 10
420.0
 20
297.0
  9
$UNITMODE
 70
     0
  9
$VISRETAIN
 70
     1
  9
$PLINEGEN
 70
     0
  9
$PSLTSCALE
 70
     1
  9
$TREEDEPTH
 70
  3020
  9
$CMLSTYLE
  2
Standard
  9
$CMLJUST
 70
     0
  9
$CMLSCALE
 40
20.0
  9
$PROXYGRAPHICS
 70
     1
  9
$MEASUREMENT
 70
     1
  9
$CELWEIGHT
370
    -1
  9
$ENDCAPS
280
     0
  9
$JOINSTYLE
280
     0
  9
$LWDISPLAY
290
     1
  9
$INSUNITS
 70
     4
  9
$HYPERLINKBASE
  1

  9
$STYLESHEET
  1

  9
$XEDIT
290
     1
  9
$CEPSNTYPE
380
     0
  9
$PSTYLEMODE
290
     1
  9
$FINGERPRINTGUID
  2
{bbd2ff6c-48b6-4b06-889c-f83533a8fdd3}
  9
$VERSIONGUID
  2
{FAEB1C32-E019-11D5-929B-00C0DF256EC4}
  9
$EXTNAMES
290
     1
  9
$PSVPSCALE
 40
0.0
  9
$OLESTARTUP
290
     0
  0
ENDSEC
  0
SECTION
  2
CLASSES
  0
CLASS
  1
ACDBDICTIONARYWDFLT
  2
AcDbDictionaryWithDefault
  3
ObjectDBX Classes
 90
        0
280
     0
281
     0
  0
CLASS
  1
VISUALSTYLE
  2
AcDbVisualStyle
  3
ObjectDBX Classes
 90
     4095
280
     0
281
     0
  0
CLASS
  1
MATERIAL
  2
AcDbMaterial
  3
ObjectDBX Classes
 90
     1153
280
     0
281
     0
  0
CLASS
  1
SCALE
  2
AcDbScale
  3
ObjectDBX Classes
 90
     1153
280
     0
281
     0
  0
CLASS
  1
TABLESTYLE
  2
AcDbTableStyle
  3
ObjectDBX Classes
 90
     4095
280
     0
281
     0
  0
CLASS
  1
MLEADERSTYLE
  2
AcDbMLeaderStyle
  3
ACDB_MLEADERSTYLE_CLASS
 90
     4095
280
     0
281
     0
  0
CLASS
  1
SUN
  2
AcDbSun
  3
SCENEOE
 90
     1153
280
     0
281
     0
  0
CLASS
  1
ACDBPLACEHOLDER
  2
AcDbPlaceHolder
  3
ObjectDBX Classes
 90
        0
280
     0
281
     0
  0
CLASS
  1
LAYOUT
  2
AcDbLayout
  3
ObjectDBX Classes
 90
        0
280
     0
281
     0
  0
ENDSEC
  0
SECTION
  2
TABLES
  0
TABLE
  2
VPORT
  5
8
330
0
100
AcDbSymbolTable
 70
     1
  0
VPORT
  5
29
330
8
100
AcDbSymbolTableRecord
100
AcDbViewportTableRecord
  2
*Active
 70
     0
 10
0.0
 20
0.0
 11
1.0
 21
1.0
 12
139.7
 22
107.95
 13
0.0
 23
0.0
 14
10.0
 24
10.0
 15
10.0
 25
10.0
 16
0.0
 26
0.0
 36
1.0
 17
0.0
 27
0.0
 37
0.0
 40
215.9
 41
1.2941176471
 42
50.0
 43
0.0
 44
0.0
 50
0.0
 51
0.0
 71
     0
 72
  2000
 73
     1
 74
     3
 75
     0
 76
     0
 77
     0
 78
     0
281
     0
 65
     1
110
0.0
120
0.0
130
0.0
111
1.0
121
0.0
131
0.0
112
0.0
122
1.0
132
0.0
 79
     0
146
0.0
  0
ENDTAB
  0
TABLE
  2
LTYPE
  5
5
330
0
100
AcDbSymbolTable
 70
     6
  0
LTYPE
  5
14
330
5
100
AcDbSymbolTableRecord
100
AcDbLinetypeTableRecord
  2
ByBlock
 70
     0
  3

 72
    65
 73
     0
 40
0.0
  0
LTYPE
  5
15
330
5
100
AcDbSymbolTableRecord
100
AcDbLinetypeTableRecord
  2
ByLayer
 70
     0
  3

 72
    65
 73
     0
 40
0.0
  0
LTYPE
  5
16
330
5
100
AcDbSymbolTableRecord
100
AcDbLinetypeTableRecord
  2
Continuous
 70
     0
  3
Solid line
 72
    65
 73
     0
 40
0.0
  0
LTYPE
  5
6E
330
5
100
AcDbSymbolTableRecord
100
AcDbLinetypeTableRecord
  2
HIDDEN
 70
     0
  3
Hidden __ __ __ __ __ __ __ __ __ __ __ __ __ __
 72
    65
 73
     2
 40
1.905
 49
1.27
 74
     0
 49
-0.635
 74
     0
  0
LTYPE
  5
6F
330
5
100
AcDbSymbolTableRecord
100
AcDbLinetypeTableRecord
  2
PHANTOM
 70
     0
  3
Phantom ______  __  __  ______  __  __  ______
 72
    65
 73
     6
 40
12.7
 49
6.35
 74
     0
 49
-1.27
 74
     0
 49
1.27
 74
     0
 49
-1.27
 74
     0
 49
1.27
 74
     0
 49
-1.27
 74
     0
  0
LTYPE
  5
70
330
5
100
AcDbSymbolTableRecord
100
AcDbLinetypeTableRecord
  2
CENTER
 70
     0
  3
Center ____ _ ____ _ ____ _ ____ _ ____ _ ____
 72
    65
 73
     4
 40
10.16
 49
6.35
 74
     0
 49
-1.27
 74
     0
 49
1.27
 74
     0
 49
-1.27
 74
     0
  0
LTYPE
  5
71
330
5
100
AcDbSymbolTableRecord
100
AcDbLinetypeTableRecord
  2
CENTERX2
 70
     0
  3
Center (2x) ________  __  ________  __  _____
 72
    65
 73
     4
 40
20.32
 49
12.7
 74
     0
 49
-2.54
 74
     0
 49
2.54
 74
     0
 49
-2.54
 74
     0
  0
LTYPE
  5
72
330
5
100
AcDbSymbolTableRecord
100
AcDbLinetypeTableRecord
  2
DOT2
 70
     0
  3
Dot (.5x) ........................................
 72
    65
 73
     2
 40
0.635
 49
0.0
 74
     0
 49
-0.635
 74
     0
  0
ENDTAB
  0
TABLE
  2
LAYER
  5
2
330
0
100
AcDbSymbolTable
 70
    17
  0
LAYER
  5
10
330
2
100
AcDbSymbolTableRecord
100
AcDbLayerTableRecord
  2
0
 70
     0
 62
     7
  6
Continuous
370
    -3
390
F
  0
LAYER
  5
73
330
2
100
AcDbSymbolTableRecord
100
AcDbLayerTableRecord
  2
FORMAT
 70
     0
 62
     7
  6
Continuous
370
    -3
390
F
  0
LAYER
  5
74
330
2
100
AcDbSymbolTableRecord
100
AcDbLayerTableRecord
  2
YARDIMCI_GEOMETRI
 70
     0
 62
    -6
  6
Continuous
290
     0
370
    -3
390
F
  0
LAYER
  5
75
330
2
100
AcDbSymbolTableRecord
100
AcDbLayerTableRecord
  2
SAYFA_CERCEVESI
 70
     0
 62
     7
  6
Continuous
370
    25
390
F
  0
LAYER
  5
76
330
2
100
AcDbSymbolTableRecord
100
AcDbLayerTableRecord
  2
ANTET
 70
     0
 62
     7
  6
Continuous
370
    -3
390
F
  0
LAYER
  5
77
330
2
100
AcDbSymbolTableRecord
100
AcDbLayerTableRecord
  2
OLCU
 70
     0
 62
   150
  6
Continuous
370
    -3
390
F
  0
LAYER
  5
78
330
2
100
AcDbSymbolTableRecord
100
AcDbLayerTableRecord
  2
METIN
 70
     0
 62
    96
  6
Continuous
370
    -3
390
F
  0
LAYER
  5
79
330
2
100
AcDbSymbolTableRecord
100
AcDbLayerTableRecord
  2
BALON
 70
     0
 62
     5
  6
Continuous
370
    -3
390
F
  0
LAYER
  5
7A
330
2
100
AcDbSymbolTableRecord
100
AcDbLayerTableRecord
  2
VURGU
 70
     0
 62
     7
  6
Continuous
370
    -3
390
F
  0
LAYER
  5
7B
330
2
100
AcDbSymbolTableRecord
100
AcDbLayerTableRecord
  2
SILIK
 70
     0
 62
     7
  6
Continuous
370
    -3
390
F
  0
LAYER
  5
7C
330
2
100
AcDbSymbolTableRecord
100
AcDbLayerTableRecord
  2
MODEL
 70
     0
 62
     7
  6
Continuous
370
    -3
390
F
  0
LAYER
  5
7D
330
2
100
AcDbSymbolTableRecord
100
AcDbLayerTableRecord
  2
DETAYLANDıRMA
 70
     0
 62
   190
  6
Continuous
370
    -3
390
F
  0
LAYER
  5
7E
330
2
100
AcDbSymbolTableRecord
100
AcDbLayerTableRecord
  2
TOLERANS
 70
     0
 62
   230
  6
Continuous
370
    -3
390
F
  0
LAYER
  5
7F
330
2
100
AcDbSymbolTableRecord
100
AcDbLayerTableRecord
  2
MERKEZ_CIZGILERI
 70
     0
 62
    30
  6
Continuous
370
    -3
390
F
  0
LAYER
  5
80
330
2
100
AcDbSymbolTableRecord
100
AcDbLayerTableRecord
  2
KESIT-DETAY_CIZGILERI
 70
     0
 62
     7
  6
Continuous
370
    -3
390
F
  0
LAYER
  5
81
330
2
100
AcDbSymbolTableRecord
100
AcDbLayerTableRecord
  2
\U+041E\U+0421\U+0415\U+0412\U+042B\U+0415
 70
     0
 62
     7
  6
Continuous
370
    -3
390
F
  0
LAYER
  5
82
330
2
100
AcDbSymbolTableRecord
100
AcDbLayerTableRecord
  2
\U+0412\U+041E\U+0414\U+042F\U+041D\U+042B\U+0415_\U+0417\U+041D\U+0410\U+041A\U+0418
 70
     0
 62
    11
  6
Continuous
370
    -3
390
F
  0
ENDTAB
  0
TABLE
  2
STYLE
  5
3
330
0
100
AcDbSymbolTable
 70
     1
  0
STYLE
  5
11
330
3
100
AcDbSymbolTableRecord
100
AcDbTextStyleTableRecord
  2
Standard
 70
     0
 40
0.0
 41
1.0
 50
0.0
 71
     0
 42
3.5
  3
txt
  4

  0
ENDTAB
  0
TABLE
  2
VIEW
  5
6
330
0
100
AcDbSymbolTable
 70
     0
  0
ENDTAB
  0
TABLE
  2
UCS
  5
7
330
0
100
AcDbSymbolTable
 70
     0
  0
ENDTAB
  0
TABLE
  2
APPID
  5
9
330
0
100
AcDbSymbolTable
 70
     1
  0
APPID
  5
12
330
9
100
AcDbSymbolTableRecord
100
AcDbRegAppTableRecord
  2
ACAD
 70
     0
  0
ENDTAB
  0
TABLE
  2
DIMSTYLE
  5
A
330
0
100
AcDbSymbolTable
 70
     1
100
AcDbDimStyleTable
  0
DIMSTYLE
105
27
330
A
100
AcDbSymbolTableRecord
100
AcDbDimStyleTableRecord
  2
ISO-25
 70
     0
 41
2.5
 42
0.625
 43
3.75
 44
1.25
 73
     0
 74
     0
 77
     1
 78
     8
140
2.5
141
2.5
143
0.0393700787
147
0.625
171
     3
172
     1
178
     0
271
     2
272
     2
274
     3
278
    44
283
     0
284
     8
340
11
  0
ENDTAB
  0
TABLE
  2
BLOCK_RECORD
  5
1
330
0
100
AcDbSymbolTable
 70
     1
  0
BLOCK_RECORD
  5
1F
330
1
100
AcDbSymbolTableRecord
100
AcDbBlockTableRecord
  2
*Model_Space
340
22
  0
BLOCK_RECORD
  5
1B
330
1
100
AcDbSymbolTableRecord
100
AcDbBlockTableRecord
  2
*Paper_Space
340
1E
  0
BLOCK_RECORD
  5
23
330
1
100
AcDbSymbolTableRecord
100
AcDbBlockTableRecord
  2
*Paper_Space0
340
26
  0
ENDTAB
  0
ENDSEC
  0
SECTION
  2
BLOCKS
  0
BLOCK
  5
20
330
1F
100
AcDbEntity
  8
0
100
AcDbBlockBegin
  2
*Model_Space
 70
     0
 10
0.0
 20
0.0
 30
0.0
  3
*Model_Space
  1

  0
ENDBLK
  5
21
330
1F
100
AcDbEntity
  8
0
100
AcDbBlockEnd
  0
BLOCK
  5
1C
330
1B
100
AcDbEntity
 67
     1
  8
0
100
AcDbBlockBegin
  2
*Paper_Space
 70
     0
 10
0.0
 20
0.0
 30
0.0
  3
*Paper_Space
  1

  0
ENDBLK
  5
1D
330
1B
100
AcDbEntity
 67
     1
  8
0
100
AcDbBlockEnd
  0
BLOCK
  5
24
330
23
100
AcDbEntity
  8
0
100
AcDbBlockBegin
  2
*Paper_Space0
 70
     0
 10
0.0
 20
0.0
 30
0.0
  3
*Paper_Space0
  1

  0
ENDBLK
  5
25
330
23
100
AcDbEntity
  8
0
100
AcDbBlockEnd
  0
ENDSEC
  0
SECTION
  2
ENTITIES
  0
CIRCLE
  5
83
330
1F
100
AcDbEntity
  8
0
  6
Continuous
 62
     7
370
    25
100
AcDbCircle
 10
135.9944086538
 20
118.27271875
 30
0.0
 40
112.5
  0
CIRCLE
  5
84
330
1F
100
AcDbEntity
  8
0
  6
Continuous
 62
     7
370
    25
100
AcDbCircle
 10
135.9944086538
 20
118.27271875
 30
0.0
 40
99.1
  0
CIRCLE
  5
85
330
1F
100
AcDbEntity
  8
0
  6
Continuous
 62
     7
370
    25
100
AcDbCircle
 10
135.9944086538
 20
118.27271875
 30
0.0
 40
119.0
  0
CIRCLE
  5
86
330
1F
100
AcDbEntity
  8
0
  6
Continuous
 62
     7
370
    25
100
AcDbCircle
 10
135.9944086538
 20
118.27271875
 30
0.0
 40
134.0
  0
LINE
  5
87
330
1F
100
AcDbEntity
  8
0
  6
Continuous
 62
     7
370
    25
100
AcDbLine
 10
269.9944086538
 20
317.9489771515
 30
0.0
 11
269.9944086538
 21
341.9489771515
 31
0.0
  0
LINE
  5
88
330
1F
100
AcDbEntity
  8
0
  6
Continuous
 62
     7
370
    25
100
AcDbLine
 10
1.9944086538
 20
341.9489771515
 30
0.0
 11
1.9944086538
 21
317.9489771515
 31
0.0
  0
LINE
  5
89
330
1F
100
AcDbEntity
  8
0
  6
Continuous
 62
     7
370
    25
100
AcDbLine
 10
254.9944086538
 20
341.9489771515
 30
0.0
 11
248.4944086538
 21
366.9489771515
 31
0.0
  0
LINE
  5
8A
330
1F
100
AcDbEntity
  8
0
  6
Continuous
 62
     7
370
    25
100
AcDbLine
 10
23.4944086538
 20
366.9489771515
 30
0.0
 11
16.9944086538
 21
341.9489771515
 31
0.0
  0
LINE
  5
8B
330
1F
100
AcDbEntity
  8
0
  6
Continuous
 62
     7
370
    25
100
AcDbLine
 10
248.4944086538
 20
366.9489771515
 30
0.0
 11
248.4944086538
 21
522.9489771515
 31
0.0
  0
LINE
  5
8C
330
1F
100
AcDbEntity
  8
0
  6
Continuous
 62
     7
370
    25
100
AcDbLine
 10
23.4944086538
 20
522.9489771515
 30
0.0
 11
23.4944086538
 21
366.9489771515
 31
0.0
  0
LINE
  5
8D
330
1F
100
AcDbEntity
  8
0
  6
Continuous
 62
     7
370
    25
100
AcDbLine
 10
269.9944086538
 20
317.9489771515
 30
0.0
 11
1.9944086538
 21
317.9489771515
 31
0.0
  0
LINE
  5
8E
330
1F
100
AcDbEntity
  8
0
  6
Continuous
 62
     7
370
    25
100
AcDbLine
 10
269.9944086538
 20
341.9489771515
 30
0.0
 11
1.9944086538
 21
341.9489771515
 31
0.0
  0
LINE
  5
8F
330
1F
100
AcDbEntity
  8
0
  6
Continuous
 62
     7
370
    25
100
AcDbLine
 10
248.4944086538
 20
366.9489771515
 30
0.0
 11
23.4944086538
 21
366.9489771515
 31
0.0
  0
LINE
  5
90
330
1F
100
AcDbEntity
  8
0
  6
Continuous
 62
     7
370
    25
100
AcDbLine
 10
248.4944086538
 20
522.9489771515
 30
0.0
 11
23.4944086538
 21
522.9489771515
 31
0.0
  0
LINE
  5
91
330
1F
100
AcDbEntity
  8
0
  6
Continuous
 62
     7
370
    25
100
AcDbLine
 10
-106.6319193243
 20
252.27271875
 30
0.0
 11
-130.6319193243
 21
252.27271875
 31
0.0
  0
LINE
  5
92
330
1F
100
AcDbEntity
  8
0
  6
Continuous
 62
     7
370
    25
100
AcDbLine
 10
-130.6319193243
 20
-15.72728125
 30
0.0
 11
-106.6319193243
 21
-15.72728125
 31
0.0
  0
LINE
  5
93
330
1F
100
AcDbEntity
  8
0
  6
Continuous
 62
     7
370
    25
100
AcDbLine
 10
-130.6319193243
 20
237.27271875
 30
0.0
 11
-155.6319193243
 21
230.77271875
 31
0.0
  0
LINE
  5
94
330
1F
100
AcDbEntity
  8
0
  6
Continuous
 62
     7
370
    25
100
AcDbLine
 10
-155.6319193243
 20
5.77271875
 30
0.0
 11
-130.6319193243
 21
-0.72728125
 31
0.0
  0
LINE
  5
95
330
1F
100
AcDbEntity
  8
0
  6
Continuous
 62
     7
370
    25
100
AcDbLine
 10
-155.6319193243
 20
230.77271875
 30
0.0
 11
-311.6319193243
 21
230.77271875
 31
0.0
  0
LINE
  5
96
330
1F
100
AcDbEntity
  8
0
  6
Continuous
 62
     7
370
    25
100
AcDbLine
 10
-311.6319193243
 20
5.77271875
 30
0.0
 11
-155.6319193243
 21
5.77271875
 31
0.0
  0
LINE
  5
97
330
1F
100
AcDbEntity
  8
0
  6
Continuous
 62
     7
370
    25
100
AcDbLine
 10
-106.6319193243
 20
252.27271875
 30
0.0
 11
-106.6319193243
 21
-15.72728125
 31
0.0
  0
LINE
  5
98
330
1F
100
AcDbEntity
  8
0
  6
Continuous
 62
     7
370
    25
100
AcDbLine
 10
-130.6319193243
 20
252.27271875
 30
0.0
 11
-130.6319193243
 21
-15.72728125
 31
0.0
  0
LINE
  5
99
330
1F
100
AcDbEntity
  8
0
  6
Continuous
 62
     7
370
    25
100
AcDbLine
 10
-155.6319193243
 20
230.77271875
 30
0.0
 11
-155.6319193243
 21
5.77271875
 31
0.0
  0
LINE
  5
9A
330
1F
100
AcDbEntity
  8
0
  6
Continuous
 62
     7
370
    25
100
AcDbLine
 10
-311.6319193243
 20
230.77271875
 30
0.0
 11
-311.6319193243
 21
5.77271875
 31
0.0
  0
LINE
  5
9B
330
1F
100
AcDbEntity
  8
0
  6
Continuous
 62
     7
370
    25
100
AcDbLine
 10
1.9944086538
 20
-140.8785775776
 30
0.0
 11
1.9944086538
 21
-164.8785775776
 31
0.0
  0
LINE
  5
9C
330
1F
100
AcDbEntity
  8
0
  6
Continuous
 62
     7
370
    25
100
AcDbLine
 10
269.9944086538
 20
-164.8785775776
 30
0.0
 11
269.9944086538
 21
-140.8785775776
 31
0.0
  0
LINE
  5
9D
330
1F
100
AcDbEntity
  8
0
  6
Continuous
 62
     7
370
    25
100
AcDbLine
 10
16.9944086538
 20
-164.8785775776
 30
0.0
 11
23.4944086538
 21
-189.8785775776
 31
0.0
  0
LINE
  5
9E
330
1F
100
AcDbEntity
  8
0
  6
Continuous
 62
     7
370
    25
100
AcDbLine
 10
248.4944086538
 20
-189.8785775776
 30
0.0
 11
254.9944086538
 21
-164.8785775776
 31
0.0
  0
LINE
  5
9F
330
1F
100
AcDbEntity
  8
0
  6
Continuous
 62
     7
370
    25
100
AcDbLine
 10
23.4944086538
 20
-189.8785775776
 30
0.0
 11
23.4944086538
 21
-345.8785775776
 31
0.0
  0
LINE
  5
A0
330
1F
100
AcDbEntity
  8
0
  6
Continuous
 62
     7
370
    25
100
AcDbLine
 10
248.4944086538
 20
-345.8785775776
 30
0.0
 11
248.4944086538
 21
-189.8785775776
 31
0.0
  0
LINE
  5
A1
330
1F
100
AcDbEntity
  8
0
  6
Continuous
 62
     7
370
    25
100
AcDbLine
 10
1.9944086538
 20
-140.8785775776
 30
0.0
 11
269.9944086538
 21
-140.8785775776
 31
0.0
  0
LINE
  5
A2
330
1F
100
AcDbEntity
  8
0
  6
Continuous
 62
     7
370
    25
100
AcDbLine
 10
1.9944086538
 20
-164.8785775776
 30
0.0
 11
269.9944086538
 21
-164.8785775776
 31
0.0
  0
LINE
  5
A3
330
1F
100
AcDbEntity
  8
0
  6
Continuous
 62
     7
370
    25
100
AcDbLine
 10
23.4944086538
 20
-189.8785775776
 30
0.0
 11
248.4944086538
 21
-189.8785775776
 31
0.0
  0
LINE
  5
A4
330
1F
100
AcDbEntity
  8
0
  6
Continuous
 62
     7
370
    25
100
AcDbLine
 10
23.4944086538
 20
-345.8785775776
 30
0.0
 11
248.4944086538
 21
-345.8785775776
 31
0.0
  0
LINE
  5
A5
330
1F
100
AcDbEntity
  8
0
  6
Continuous
 62
     7
370
    25
100
AcDbLine
 10
369.621332784
 20
-15.72728125
 30
0.0
 11
393.621332784
 21
-15.72728125
 31
0.0
  0
LINE
  5
A6
330
1F
100
AcDbEntity
  8
0
  6
Continuous
 62
     7
370
    25
100
AcDbLine
 10
393.621332784
 20
252.27271875
 30
0.0
 11
369.621332784
 21
252.27271875
 31
0.0
  0
LINE
  5
A7
330
1F
100
AcDbEntity
  8
0
  6
Continuous
 62
     7
370
    25
100
AcDbLine
 10
393.621332784
 20
-0.72728125
 30
0.0
 11
418.621332784
 21
5.77271875
 31
0.0
  0
LINE
  5
A8
330
1F
100
AcDbEntity
  8
0
  6
Continuous
 62
     7
370
    25
100
AcDbLine
 10
418.621332784
 20
230.77271875
 30
0.0
 11
393.621332784
 21
237.27271875
 31
0.0
  0
LINE
  5
A9
330
1F
100
AcDbEntity
  8
0
  6
Continuous
 62
     7
370
    25
100
AcDbLine
 10
418.621332784
 20
5.77271875
 30
0.0
 11
574.621332784
 21
5.77271875
 31
0.0
  0
LINE
  5
AA
330
1F
100
AcDbEntity
  8
0
  6
Continuous
 62
     7
370
    25
100
AcDbLine
 10
574.621332784
 20
230.77271875
 30
0.0
 11
418.621332784
 21
230.77271875
 31
0.0
  0
LINE
  5
AB
330
1F
100
AcDbEntity
  8
0
  6
Continuous
 62
     7
370
    25
100
AcDbLine
 10
369.621332784
 20
118.27271875
 30
0.0
 11
369.621332784
 21
252.27271875
 31
0.0
  0
LINE
  5
AC
330
1F
100
AcDbEntity
  8
0
  6
Continuous
 62
     7
370
    25
100
AcDbLine
 10
369.621332784
 20
-15.72728125
 30
0.0
 11
369.621332784
 21
118.27271875
 31
0.0
  0
LINE
  5
AD
330
1F
100
AcDbEntity
  8
0
  6
Continuous
 62
     7
370
    25
100
AcDbLine
 10
393.621332784
 20
118.27271875
 30
0.0
 11
393.621332784
 21
252.27271875
 31
0.0
  0
LINE
  5
AE
330
1F
100
AcDbEntity
  8
0
  6
Continuous
 62
     7
370
    25
100
AcDbLine
 10
393.621332784
 20
-15.72728125
 30
0.0
 11
393.621332784
 21
118.27271875
 31
0.0
  0
LINE
  5
AF
330
1F
100
AcDbEntity
  8
0
  6
Continuous
 62
     7
370
    25
100
AcDbLine
 10
418.621332784
 20
118.27271875
 30
0.0
 11
418.621332784
 21
230.77271875
 31
0.0
  0
LINE
  5
B0
330
1F
100
AcDbEntity
  8
0
  6
Continuous
 62
     7
370
    25
100
AcDbLine
 10
418.621332784
 20
5.77271875
 30
0.0
 11
418.621332784
 21
118.27271875
 31
0.0
  0
LINE
  5
B1
330
1F
100
AcDbEntity
  8
0
  6
Continuous
 62
     7
370
    25
100
AcDbLine
 10
574.621332784
 20
118.27271875
 30
0.0
 11
574.621332784
 21
230.77271875
 31
0.0
  0
LINE
  5
B2
330
1F
100
AcDbEntity
  8
0
  6
Continuous
 62
     7
370
    25
100
AcDbLine
 10
574.621332784
 20
5.77271875
 30
0.0
 11
574.621332784
 21
118.27271875
 31
0.0
  0
LINE
  5
B3
330
1F
100
AcDbEntity
  8
0
  6
Continuous
 62
     7
370
    25
100
AcDbLine
 10
549.7156059414
 20
-129.8275038169
 30
0.0
 11
439.4069480763
 21
-66.1476710948
 31
0.0
  0
LINE
  5
B4
330
1F
100
AcDbEntity
  8
0
  6
Continuous
 62
     7
370
    25
100
AcDbLine
 10
326.9160906547
 20
-261.0086651304
 30
0.0
 11
437.2247485198
 21
-324.6884978526
 31
0.0
  0
LINE
  5
B5
330
1F
100
AcDbEntity
  8
0
  6
Continuous
 62
     7
370
    25
100
AcDbLine
 10
595.1129645953
 20
-131.2094520154
 30
0.0
 11
578.1424018469
 21
-121.4125546735
 31
0.0
  0
LINE
  5
B6
330
1F
100
AcDbEntity
  8
0
  6
Continuous
 62
     7
370
    25
100
AcDbLine
 10
444.1532916736
 20
-353.5136497916
 30
0.0
 11
461.1238544221
 21
-363.3105471334
 31
0.0
  0
LINE
  5
B7
330
1F
100
AcDbEntity
  8
0
  6
Continuous
 62
     7
370
    25
100
AcDbLine
 10
558.6880141292
 20
-129.8443149298
 30
0.0
 11
544.4995856907
 21
-126.8163594202
 31
0.0
  0
LINE
  5
B8
330
1F
100
AcDbEntity
  8
0
  6
Continuous
 62
     7
370
    25
100
AcDbLine
 10
432.0087282691
 20
-321.6773534559
 30
0.0
 11
441.72623981
 21
-332.4500033423
 31
0.0
  0
LWPOLYLINE
  5
B9
330
1F
100
AcDbEntity
  8
0
  6
Continuous
 62
     7
370
    25
100
AcDbPolyline
 90
      123
 70
   128
 43
0.0
 10
303.612006482
 20
-209.5011244026
 10
303.7174819858
 20
-204.7113529662
 10
304.0336287951
 20
-199.812503718
 10
304.5596085454
 20
-194.8175675256
 10
305.2940264329
 20
-189.7397900619
 10
306.2349349135
 20
-184.5926366798
 10
307.379838867
 20
-179.3897567048
 10
308.7257022139
 20
-174.1449472394
 10
310.2689559666
 20
-168.8721165753
 10
312.0055076936
 20
-163.5852473115
 10
313.9307523718
 20
-158.298359275
 10
316.0395845986
 20
-153.0254723424
 10
318.3264121298
 20
-147.7805692619
 10
320.78517071
 20
-142.5775585737
 10
323.4093401535
 20
-137.4302377266
 10
326.1919616346
 20
-132.3522564904
 10
329.1256561415
 20
-127.3570807583
 10
332.2026440436
 20
-122.4579568384
 10
335.4147657221
 20
-117.6678763266
 10
338.753503208
 20
-112.9995416554
 10
342.2100027694
 20
-108.465332409
 10
345.7750983911
 20
-104.0772724953
 10
349.4393360802
 20
-99.8469982603
 10
353.1929989372
 20
-95.7857276309
 10
357.0261329229
 20
-91.9042303666
 10
360.9285732551
 20
-88.2127995003
 10
364.8899713636
 20
-84.7212240433
 10
368.8998223327
 20
-81.4387630258
 10
372.9474927585
 20
-78.3741209444
 10
377.0222489467
 20
-75.535424679
 10
381.1132853765
 20
-72.9302019418
 10
385.2097533545
 20
-70.5653613152
 10
389.3007897842
 20
-68.4471739312
 10
393.3755459724
 20
-66.5812568422
 10
397.4232163983
 20
-64.9725581248
 10
401.4330673674
 20
-63.6253437587
 10
405.3944654759
 20
-62.5431863144
 10
409.2969058081
 20
-61.7289554787
 10
413.1300397938
 20
-61.1848104456
 10
416.8837026507
 20
-60.9121941898
 10
420.5479403399
 20
-60.9118296406
 10
424.1130359615
 20
-61.1837177647
 10
427.569535523
 20
-61.7271375637
 10
430.9082730088
 20
-62.5406479861
 10
434.1203946874
 20
-63.6220917483
 10
437.1973825895
 20
-64.9686010559
 10
440.1310770963
 20
-66.5766052084
 10
442.9136985775
 20
-68.4418400678
 10
445.537868021
 20
-70.5593593665
 10
447.9966266012
 20
-72.9235478241
 10
450.2834541324
 20
-75.5281360377
 10
452.3922863591
 20
-78.3662171077
 10
454.3175310374
 20
-81.4302649532
 10
456.0540827643
 20
-84.7121542701
 10
457.597336517
 20
-88.2031820781
 10
458.943199864
 20
-91.8940907989
 10
460.0881038175
 20
-95.7750928061
 10
461.029012298
 20
-99.8358963801
 10
461.7634301856
 20
-104.0657329998
 10
462.2894099359
 20
-108.4533858989
 10
462.6055567452
 20
-112.9872198106
 10
462.711032249
 20
-117.6552118226
 10
462.6055567452
 20
-122.444983259
 10
462.2894099359
 20
-127.3438325072
 10
461.7634301856
 20
-132.3387686996
 10
461.029012298
 20
-137.4165461633
 10
460.0881038175
 20
-142.5636995454
 10
458.943199864
 20
-147.7665795203
 10
457.597336517
 20
-153.0113889858
 10
456.0540827643
 20
-158.2842196499
 10
454.3175310374
 20
-163.5710889136
 10
452.3922863591
 20
-168.8579769501
 10
450.2834541324
 20
-174.1308638827
 10
447.9966266012
 20
-179.3757669632
 10
445.537868021
 20
-184.5787776515
 10
442.9136985775
 20
-189.7260984985
 10
440.1310770963
 20
-194.8040797348
 10
437.1973825895
 20
-199.7992554669
 10
434.1203946874
 20
-204.6983793868
 10
430.9082730088
 20
-209.4884598986
 10
427.569535523
 20
-214.1567945698
 10
424.1130359615
 20
-218.6910038162
 10
420.5479403399
 20
-223.0790637299
 10
416.8837026507
 20
-227.3093379648
 10
413.1300397938
 20
-231.3706085943
 10
409.2969058081
 20
-235.2521058586
 10
405.3944654759
 20
-238.9435367248
 10
401.4330673674
 20
-242.4351121819
 10
397.4232163983
 20
-245.7175731994
 10
393.3755459724
 20
-248.7822152807
 10
389.3007897842
 20
-251.6209115461
 10
385.2097533545
 20
-254.2261342833
 10
381.1132853765
 20
-256.59097491
 10
377.0222489467
 20
-258.7091622939
 10
372.9474927585
 20
-260.575079383
 10
368.8998223327
 20
-262.1837781004
 10
364.8899713636
 20
-263.5309924664
 10
360.9285732551
 20
-264.6131499108
 10
357.0261329229
 20
-265.4273807464
 10
353.1929989372
 20
-265.9715257796
 10
349.4393360802
 20
-266.2441420354
 10
345.7750983911
 20
-266.2445065846
 10
342.2100027694
 20
-265.9726184605
 10
338.753503208
 20
-265.4291986614
 10
335.4147657221
 20
-264.6156882391
 10
332.2026440436
 20
-263.5342444769
 10
329.1256561415
 20
-262.1877351692
 10
326.1919616346
 20
-260.5797310167
 10
323.4093401535
 20
-258.7144961574
 10
320.78517071
 20
-256.5969768586
 10
318.3264121298
 20
-254.2327884011
 10
316.0395845986
 20
-251.6282001875
 10
313.9307523718
 20
-248.7901191175
 10
312.0055076936
 20
-245.726071272
 10
310.2689559666
 20
-242.444181955
 10
308.7257022139
 20
-238.9531541471
 10
307.379838867
 20
-235.2622454263
 10
306.2349349135
 20
-231.3812434191
 10
305.2940264329
 20
-227.3204398451
 10
304.5596085454
 20
-223.0906032254
 10
304.0336287951
 20
-218.7029503263
 10
303.7174819858
 20
-214.1691164145
 10
303.612006482
 20
-209.5011244026
  0
LWPOLYLINE
  5
BA
330
1F
100
AcDbEntity
  8
0
  6
Continuous
 62
     7
370
    25
100
AcDbPolyline
 90
      116
 70
   128
 43
0.0
 10
313.0872373499
 20
-204.0311900534
 10
313.1918019495
 20
-199.5518924916
 10
313.5051836863
 20
-194.9652351974
 10
314.0264473061
 20
-190.2849065588
 10
314.7540371535
 20
-185.524874516
 10
315.6857818142
 20
-180.6993448755
 10
316.8189005961
 20
-175.8227189143
 10
318.1500118273
 20
-170.909550401
 10
319.6751429487
 20
-165.9745021615
 10
321.3897423697
 20
-161.0323023193
 10
323.2886930517
 20
-156.0977003413
 10
325.3663277795
 20
-151.1854230191
 10
327.6164460745
 20
-146.3101305191
 10
330.0323326993
 20
-141.4863726302
 10
332.6067776987
 20
-136.7285453419
 10
335.332097917
 20
-132.0508478808
 10
338.2001599274
 20
-127.4672403345
 10
341.2024043059
 20
-122.9914019895
 10
344.329871175
 20
-118.6366905067
 10
347.5732269445
 20
-114.4161020566
 10
350.922792166
 20
-110.3422325339
 10
354.3685704204
 20
-106.4272399666
 10
357.9002781511
 20
-102.6828082312
 10
361.507375354
 20
-99.1201121836
 10
365.1790970336
 20
-95.7497843091
 10
368.9044853291
 20
-92.5818829908
 10
372.6724222176
 20
-89.6258624913
 10
376.4716626946
 20
-86.8905447375
 10
380.2908683333
 20
-84.3840929928
 10
384.1186411229
 20
-82.1139874942
 10
387.943557485
 20
-80.0870031288
 10
391.7542023659
 20
-78.3091892146
 10
395.5392033034
 20
-76.785851447
 10
399.2872643673
 20
-75.5215360648
 10
402.98719987
 20
-74.5200162819
 10
406.62796775
 20
-73.7842810269
 10
410.1987025249
 20
-73.3165260231
 10
413.6887477187
 20
-73.1181472352
 10
417.0876876648
 20
-73.1897367035
 10
420.3853785906
 20
-73.5310807769
 10
423.5719788902
 20
-74.1411607505
 10
426.6379784959
 20
-75.0181559059
 10
429.5742272598
 20
-76.1594489448
 10
432.3719622615
 20
-77.5616338003
 10
435.0228339603
 20
-79.2205258016
 10
437.518931113
 20
-81.131174163
 10
439.8528043847
 20
-83.2878767589
 10
442.0174885803
 20
-85.684197141
 10
444.0065234314
 20
-88.3129837475
 10
445.8139728761
 20
-91.166391246
 10
447.4344427751
 20
-94.2359039469
 10
448.863097009
 20
-97.512361218
 10
450.0956719124
 20
-100.985984823
 10
451.1284889971
 20
-104.6464081038
 10
451.9584659311
 20
-108.4827069187
 10
452.5831257369
 20
-112.4834322442
 10
453.0006041843
 20
-116.6366443435
 10
453.2096553534
 20
-120.9299483994
 10
453.2096553534
 20
-125.3505315051
 10
453.0006041843
 20
-129.8852009032
 10
452.5831257369
 20
-134.520423358
 10
451.9584659311
 20
-139.2423655438
 10
451.1284889971
 20
-144.0369353293
 10
450.0956719124
 20
-148.8898238338
 10
448.863097009
 20
-153.7865481306
 10
447.4344427751
 20
-158.7124944699
 10
445.8139728761
 20
-163.6529618918
 10
444.0065234314
 20
-168.5932060995
 10
442.0174885803
 20
-173.5184834629
 10
439.8528043847
 20
-178.4140950184
 10
437.518931113
 20
-183.2654303369
 10
435.0228339603
 20
-188.0580111272
 10
432.3719622615
 20
-192.7775344446
 10
429.5742272598
 20
-197.4099153764
 10
426.6379784959
 20
-201.9413290774
 10
423.5719788902
 20
-206.358252028
 10
420.3853785906
 20
-210.6475023941
 10
417.0876876648
 20
-214.7962793669
 10
413.6887477187
 20
-218.7922013653
 10
410.1987025249
 20
-222.6233429874
 10
406.62796775
 20
-226.2782706009
 10
402.98719987
 20
-229.7460764653
 10
399.2872643673
 20
-233.0164112849
 10
395.5392033034
 20
-236.0795150952
 10
391.7542023659
 20
-238.9262463907
 10
387.943557485
 20
-241.5481094061
 10
384.1186411229
 20
-243.9372794719
 10
380.2908683333
 20
-246.0866263655
 10
376.4716626946
 20
-247.989735591
 10
372.6724222176
 20
-249.6409275226
 10
368.9044853291
 20
-251.0352743544
 10
365.1790970336
 20
-252.1686148075
 10
361.507375354
 20
-253.0375665486
 10
357.9002781511
 20
-253.6395362842
 10
354.3685704204
 20
-253.9727274999
 10
350.922792166
 20
-254.0361458223
 10
347.5732269445
 20
-253.8296019861
 10
344.329871175
 20
-253.3537123993
 10
341.2024043059
 20
-252.6098973034
 10
338.2001599274
 20
-251.6003765352
 10
335.332097917
 20
-250.3281629012
 10
332.6067776987
 20
-248.7970531871
 10
330.0323326993
 20
-247.0116168259
 10
327.6164460745
 20
-244.9771822616
 10
325.3663277795
 20
-242.6998210465
 10
323.2886930517
 20
-240.1863297215
 10
321.3897423697
 20
-237.4442095326
 10
319.6751429487
 20
-234.4816440442
 10
318.1500118273
 20
-231.3074747161
 10
316.8189005961
 20
-227.9311745172
 10
315.6857818142
 20
-224.3628196542
 10
314.7540371535
 20
-220.6130595006
 10
314.0264473061
 20
-216.6930848144
 10
313.5051836863
 20
-212.6145943408
 10
313.1918019495
 20
-208.3897598983
 10
313.0872373499
 20
-204.0311900534
  0
LWPOLYLINE
  5
BB
330
1F
100
AcDbEntity
  8
0
  6
Continuous
 62
     7
370
    25
100
AcDbPolyline
 90
       63
 70
   128
 43
0.0
 10
549.7156059414
 20
-129.8275038169
 10
550.4397349614
 20
-130.2564379306
 10
553.2223564426
 20
-132.12167279
 10
555.8465258861
 20
-134.2391920887
 10
558.3052844663
 20
-136.6033805463
 10
560.5921119975
 20
-139.2079687599
 10
562.7009442242
 20
-142.0460498298
 10
564.6261889025
 20
-145.1100976753
 10
566.3627406294
 20
-148.3919869923
 10
567.9059943821
 20
-151.8830148003
 10
569.2518577291
 20
-155.5739235211
 10
570.3967616826
 20
-159.4549255283
 10
571.3376701631
 20
-163.5157291023
 10
572.0720880507
 20
-167.745565722
 10
572.598067801
 20
-172.1332186211
 10
572.9142146103
 20
-176.6670525328
 10
573.0196901141
 20
-181.3350445447
 10
572.9142146103
 20
-186.1248159812
 10
572.598067801
 20
-191.0236652294
 10
572.0720880507
 20
-196.0186014218
 10
571.3376701631
 20
-201.0963788855
 10
570.3967616826
 20
-206.2435322676
 10
569.2518577291
 20
-211.4464122425
 10
567.9059943821
 20
-216.691221708
 10
566.3627406294
 20
-221.9640523721
 10
564.6261889025
 20
-227.2509216358
 10
562.7009442242
 20
-232.5378096723
 10
560.5921119975
 20
-237.8106966049
 10
558.3052844663
 20
-243.0555996854
 10
555.8465258861
 20
-248.2586103737
 10
553.2223564426
 20
-253.4059312207
 10
550.4397349614
 20
-258.483912457
 10
547.5060404546
 20
-263.4790881891
 10
544.4290525525
 20
-268.378212109
 10
541.2169308739
 20
-273.1682926207
 10
537.8781933881
 20
-277.836627292
 10
534.4216938266
 20
-282.3708365383
 10
530.856598205
 20
-286.758896452
 10
527.1923605159
 20
-290.989170687
 10
523.4386976589
 20
-295.0504413165
 10
519.6055636732
 20
-298.9319385808
 10
515.703123341
 20
-302.623369447
 10
511.7417252325
 20
-306.1149449041
 10
507.7318742634
 20
-309.3974059216
 10
503.6842038375
 20
-312.4620480029
 10
499.6094476493
 20
-315.3007442683
 10
495.5184112196
 20
-317.9059670055
 10
491.4219432416
 20
-320.2708076322
 10
487.3309068118
 20
-322.3889950161
 10
483.2561506236
 20
-324.2549121051
 10
479.2084801978
 20
-325.8636108226
 10
475.1986292287
 20
-327.2108251886
 10
471.2372311202
 20
-328.292982633
 10
467.334790788
 20
-329.1072134686
 10
463.5016568023
 20
-329.6513585017
 10
459.7479939453
 20
-329.9239747576
 10
456.0837562562
 20
-329.9243393068
 10
452.5186606345
 20
-329.6524511826
 10
449.0621610731
 20
-329.1090313836
 10
445.7234235872
 20
-328.2955209613
 10
442.5113019087
 20
-327.2140771991
 10
439.4343140066
 20
-325.8675678914
 10
437.2247485198
 20
-324.6884978526
  0
LWPOLYLINE
  5
BC
330
1F
100
AcDbEntity
  8
0
  6
Continuous
 62
     7
370
    25
100
AcDbPolyline
 90
       69
 70
   128
 43
0.0
 10
595.1129645953
 20
-131.2094520154
 10
597.432692396
 20
-132.6447115623
 10
600.3845909299
 20
-134.7743411463
 10
603.1776327133
 20
-137.1512386202
 10
605.8056780341
 20
-139.7701790474
 10
608.2629498782
 20
-142.6254054284
 10
610.544046629
 20
-145.7106413561
 10
612.6439539407
 20
-149.0191048123
 10
614.5580557613
 20
-152.5435230762
 10
616.2821444795
 20
-156.2761487117
 10
617.8124301742
 20
-160.2087765975
 10
619.1455489453
 20
-164.3327619639
 10
620.2785703085
 20
-168.6390393963
 10
621.2090036368
 20
-173.118142762
 10
621.9348036359
 20
-177.76022602
 10
622.4543748399
 20
-182.5550848637
 10
622.7665751185
 20
-187.4921791527
 10
622.8707181877
 20
-192.5606560823
 10
622.7665751185
 20
-197.7493740402
 10
622.4543748399
 20
-203.0469270983
 10
621.9348036359
 20
-208.4416700852
 10
621.2090036368
 20
-213.921744185
 10
620.2785703085
 20
-219.4751030055
 10
619.1455489453
 20
-225.0895390588
 10
617.8124301742
 20
-230.7527105959
 10
616.2821444795
 20
-236.4521687367
 10
614.5580557613
 20
-242.1753848353
 10
612.6439539407
 20
-247.9097780207
 10
610.544046629
 20
-253.6427428519
 10
608.2629498782
 20
-259.3616770283
 10
605.805678034
 20
-265.0540090911
 10
603.1776327133
 20
-270.7072260593
 10
600.3845909299
 20
-276.3089009349
 10
597.432692396
 20
-281.8467200209
 10
594.3284260251
 20
-287.308509989
 10
591.0786156684
 20
-292.6822646396
 10
587.6904051144
 20
-297.9561712936
 10
584.1712423852
 20
-303.1186367596
 10
580.5288633644
 20
-308.1583128183
 10
576.7712747913
 20
-313.0641211677
 10
572.9067366614
 20
-317.8252777765
 10
568.943744068
 20
-322.4313165891
 10
564.8910085289
 20
-326.8721125326
 10
560.7574388365
 20
-331.1379037737
 10
556.5521214741
 20
-335.2193131775
 10
552.2843006418
 20
-339.1073689203
 10
547.9633579361
 20
-342.7935242118
 10
543.5987917269
 20
-346.2696760826
 10
539.2001962779
 20
-349.5281831965
 10
534.7772406564
 20
-352.5618826477
 10
530.339647479
 20
-355.3641057064
 10
525.8971715384
 20
-357.9286924781
 10
521.459578361
 20
-360.2500054446
 10
517.0366227396
 20
-362.3229418561
 10
512.6380272905
 20
-364.1429449485
 10
508.2734610813
 20
-365.70601396
 10
503.9525183756
 20
-367.0087129258
 10
499.6846975433
 20
-368.0481782307
 10
495.4793801809
 20
-368.8221249044
 10
491.3458104885
 20
-369.3288516442
 10
487.2930749495
 20
-369.5672445548
 10
483.3300823561
 20
-369.5367795967
 10
479.4655442261
 20
-369.2375237385
 10
475.7079556531
 20
-368.6701348096
 10
472.0655766322
 20
-367.835860054
 10
468.546413903
 20
-366.7365333887
 10
465.1582033491
 20
-365.3745713722
 10
461.9083929924
 20
-363.7529678927
 10
461.1238544221
 20
-363.3105471334
  0
LWPOLYLINE
  5
BD
330
1F
100
AcDbEntity
  8
0
  6
Continuous
 62
     7
370
    25
100
AcDbPolyline
 90
       94
 70
   128
 43
0.0
 10
530.9906266717
 20
-119.0178033755
 10
530.9927951877
 20
-119.0170878469
 10
535.3137378933
 20
-117.7143888812
 10
539.5815587256
 20
-116.6749235763
 10
543.7868760881
 20
-115.9009769025
 10
547.9204457805
 20
-115.3942501627
 10
551.9731813195
 20
-115.1558572522
 10
555.9361739129
 20
-115.1863222103
 10
559.8007120429
 20
-115.4855780685
 10
563.5583006159
 20
-116.0529669973
 10
567.2006796368
 20
-116.8872417529
 10
570.7198423659
 20
-117.9865684182
 10
574.1080529199
 20
-119.3485304347
 10
577.3578632766
 20
-120.9701339142
 10
580.4621296475
 20
-122.8478142204
 10
583.4140281815
 20
-124.9774438045
 10
586.2070699648
 20
-127.3543412783
 10
588.8351152856
 20
-129.9732817055
 10
591.2923871298
 20
-132.8285080866
 10
593.5734838805
 20
-135.9137440143
 10
595.6733911922
 20
-139.2222074704
 10
597.5874930128
 20
-142.7466257344
 10
599.311581731
 20
-146.4792513698
 10
600.8418674257
 20
-150.4118792556
 10
602.1749861969
 20
-154.5358646221
 10
603.30800756
 20
-158.8421420544
 10
604.2384408883
 20
-163.3212454202
 10
604.9642408875
 20
-167.9633286781
 10
605.4838120914
 20
-172.7581875218
 10
605.79601237
 20
-177.6952818108
 10
605.9001554392
 20
-182.7637587404
 10
605.79601237
 20
-187.9524766984
 10
605.4838120914
 20
-193.2500297565
 10
604.9642408875
 20
-198.6447727433
 10
604.2384408883
 20
-204.1248468431
 10
603.30800756
 20
-209.6782056636
 10
602.1749861969
 20
-215.2926417169
 10
600.8418674257
 20
-220.955813254
 10
599.311581731
 20
-226.6552713948
 10
597.5874930128
 20
-232.3784874935
 10
595.6733911922
 20
-238.1128806788
 10
593.5734838805
 20
-243.8458455101
 10
591.2923871298
 20
-249.5647796864
 10
588.8351152856
 20
-255.2571117493
 10
586.2070699648
 20
-260.9103287174
 10
583.4140281815
 20
-266.512003593
 10
580.4621296475
 20
-272.049822679
 10
577.3578632766
 20
-277.5116126471
 10
574.1080529199
 20
-282.8853672977
 10
570.7198423659
 20
-288.1592739517
 10
567.2006796368
 20
-293.3217394178
 10
563.5583006159
 20
-298.3614154764
 10
559.8007120429
 20
-303.2672238258
 10
555.9361739129
 20
-308.0283804346
 10
551.9731813195
 20
-312.6344192472
 10
547.9204457804
 20
-317.0752151907
 10
543.7868760881
 20
-321.3410064318
 10
539.5815587256
 20
-325.4224158356
 10
535.3137378933
 20
-329.3104715784
 10
530.9927951877
 20
-332.9966268699
 10
526.6282289784
 20
-336.4727787407
 10
522.2296335294
 20
-339.7312858546
 10
517.806677908
 20
-342.7649853058
 10
513.3690847305
 20
-345.5672083645
 10
508.92660879
 20
-348.1317951362
 10
504.4890156125
 20
-350.4531081027
 10
500.0660599911
 20
-352.5260445142
 10
495.6674645421
 20
-354.3460476066
 10
491.3028983328
 20
-355.9091166181
 10
486.9819556271
 20
-357.2118155839
 10
482.7141347949
 20
-358.2512808888
 10
478.5088174324
 20
-359.0252275625
 10
474.37524774
 20
-359.5319543024
 10
470.322512201
 20
-359.7703472129
 10
466.3595196076
 20
-359.7398822548
 10
462.4949814776
 20
-359.4406263966
 10
458.7373929046
 20
-358.8732374678
 10
455.0950138837
 20
-358.0389627122
 10
451.5758511546
 20
-356.9396360468
 10
448.1876406006
 20
-355.5776740304
 10
444.9378302439
 20
-353.9560705509
 10
441.833563873
 20
-352.0783902447
 10
438.881665339
 20
-349.9487606606
 10
436.0886235557
 20
-347.5718631868
 10
433.4605782349
 20
-344.9529227596
 10
431.0033063907
 20
-342.0976963785
 10
428.7222096399
 20
-339.0124604508
 10
426.6223023283
 20
-335.7039969946
 10
424.7082005077
 20
-332.1795787307
 10
422.9841117895
 20
-328.4469530952
 10
421.4538260947
 20
-324.5143252095
 10
420.1207073236
 20
-320.390339843
 10
418.9876859605
 20
-316.0840624107
 10
418.4997692502
 20
-313.8787974112
  0
LWPOLYLINE
  5
BE
330
1F
100
AcDbEntity
  8
0
  6
Continuous
 62
     7
370
    25
100
AcDbPolyline
 90
       72
 70
   128
 43
0.0
 10
558.6880141292
 20
-129.8443149298
 10
560.2673707446
 20
-130.2123229247
 10
563.6118369207
 20
-131.2070050851
 10
566.825869351
 20
-132.4658566449
 10
569.9014774444
 20
-133.9857479008
 10
572.8310147546
 20
-135.7629001638
 10
575.6071979902
 20
-137.7928951531
 10
578.2231251223
 20
-140.0706859816
 10
580.6722925438
 20
-142.5906097022
 10
582.9486112387
 20
-145.3464013875
 10
585.0464219201
 20
-148.3312097052
 10
586.9605090999
 20
-151.5376139516
 10
588.686114056
 20
-154.9576425004
 10
590.2189466625
 20
-158.5827926219
 10
591.555196056
 20
-162.4040516216
 10
592.69154011
 20
-166.4119192476
 10
593.6251536942
 20
-170.5964313095
 10
594.353715698
 20
-174.947184451
 10
594.8754148015
 20
-179.4533620142
 10
595.1889539786
 20
-184.1037609317
 10
595.2935537214
 20
-188.8868195791
 10
595.1889539786
 20
-193.790646519
 10
594.8754148015
 20
-198.8030500649
 10
594.353715698
 20
-203.9115685918
 10
593.6251536942
 20
-209.1035015178
 10
592.69154011
 20
-214.3659408797
 10
591.555196056
 20
-219.6858034238
 10
590.2189466625
 20
-225.0498631339
 10
588.686114056
 20
-230.4447841122
 10
586.9605090999
 20
-235.8571537351
 10
585.0464219201
 20
-241.2735159991
 10
582.9486112387
 20
-246.680404974
 10
580.6722925438
 20
-252.0643782821
 10
578.2231251223
 20
-257.4120505173
 10
575.6071979902
 20
-262.7101265238
 10
572.8310147546
 20
-267.94543445
 10
569.9014774444
 20
-273.1049584954
 10
566.825869351
 20
-278.1758712704
 10
563.6118369207
 20
-283.1455656867
 10
560.2673707446
 20
-288.0016863011
 10
556.8007856924
 20
-292.7321600325
 10
553.2207002408
 20
-297.3252261779
 10
549.5360150465
 20
-301.7694656511
 10
545.7558908172
 20
-306.0538293727
 10
541.8897255375
 20
-310.1676657393
 10
537.9471311034
 20
-314.1007471055
 10
533.9379094258
 20
-317.8432952113
 10
529.8720280617
 20
-321.3860054926
 10
525.7595954326
 20
-324.7200702133
 10
521.610835694
 20
-327.8372003631
 10
517.4360633164
 20
-330.7296462655
 10
513.2456574416
 20
-333.3902168441
 10
509.0500360789
 20
-335.8122975014
 10
504.8596302041
 20
-337.9898665631
 10
500.6848578265
 20
-339.9175102494
 10
496.5360980879
 20
-341.5904361345
 10
492.4236654588
 20
-343.0044850609
 10
488.3577840946
 20
-344.1561414804
 10
484.3485624171
 20
-345.0425421934
 10
480.405967983
 20
-345.6614834683
 10
476.5398027033
 20
-346.0114265195
 10
472.759678474
 20
-346.0915013333
 10
469.0749932796
 20
-345.9015088313
 10
465.4949078281
 20
-345.4419213647
 10
462.0283227759
 20
-344.7138815404
 10
458.6838565997
 20
-343.71919938
 10
455.4698241694
 20
-342.4603478202
 10
452.3942160761
 20
-340.9404565642
 10
449.4646787659
 20
-339.1633043013
 10
446.6884955303
 20
-337.1333093119
 10
444.0725683982
 20
-334.8555184835
 10
441.72623981
 20
-332.4500033423
  0
ENDSEC
  0
SECTION
  2
OBJECTS
  0
DICTIONARY
  5
C
330
0
100
AcDbDictionary
281
     1
  3
ACAD_GROUP
350
D
  3
ACAD_LAYOUT
350
1A
  3
ACAD_MLINESTYLE
350
17
  3
ACAD_PLOTSETTINGS
350
19
  3
ACAD_PLOTSTYLENAME
350
E
  3
ACAD_SCALELIST
350
47
  0
DICTIONARY
  5
D
102
{ACAD_REACTORS
330
C
102
}
330
C
100
AcDbDictionary
281
     1
  0
DICTIONARY
  5
1A
102
{ACAD_REACTORS
330
C
102
}
330
C
100
AcDbDictionary
281
     1
  3
Layout1
350
1E
  3
Layout2
350
26
  3
Model
350
22
  0
DICTIONARY
  5
17
102
{ACAD_REACTORS
330
C
102
}
330
C
100
AcDbDictionary
281
     1
  3
Standard
350
18
  0
DICTIONARY
  5
19
102
{ACAD_REACTORS
330
C
102
}
330
C
100
AcDbDictionary
281
     1
  0
ACDBDICTIONARYWDFLT
  5
E
102
{ACAD_REACTORS
330
C
102
}
330
C
100
AcDbDictionary
281
     1
  3
Normal
350
F
100
AcDbDictionaryWithDefault
340
F
  0
DICTIONARY
  5
47
102
{ACAD_REACTORS
330
C
102
}
330
C
100
AcDbDictionary
281
     1
  3
A0
350
48
  3
A1
350
49
  3
A2
350
4A
  3
A3
350
4B
  3
A4
350
4C
  3
A5
350
4D
  3
A6
350
4E
  3
A7
350
4F
  3
A8
350
50
  3
A9
350
51
  3
B0
350
52
  3
B1
350
53
  3
B2
350
54
  3
B3
350
55
  3
B4
350
56
  3
B5
350
57
  3
B6
350
58
  3
B7
350
59
  3
B8
350
5A
  3
B9
350
5B
  3
C0
350
5C
  3
C1
350
5D
  3
C2
350
5E
  3
C3
350
5F
  3
C4
350
60
  3
C5
350
61
  3
C6
350
62
  3
C7
350
63
  3
C8
350
64
  3
C9
350
65
  3
D0
350
66
  3
D1
350
67
  3
D2
350
68
  0
LAYOUT
  5
1E
102
{ACAD_REACTORS
330
1A
102
}
330
1A
100
AcDbPlotSettings
  1

  2
none_device
  4

  6

 40
0.0
 41
0.0
 42
0.0
 43
0.0
 44
0.0
 45
0.0
 46
0.0
 47
0.0
 48
0.0
 49
0.0
140
0.0
141
0.0
142
1.0
143
1.0
 70
   688
 72
     1
 73
     0
 74
     5
  7

 75
    16
147
1.0
148
0.0
149
0.0
100
AcDbLayout
  1
Layout1
 70
     1
 71
     1
 10
0.0
 20
0.0
 11
420.0
 21
297.0
 12
0.0
 22
0.0
 32
0.0
 14
1.0000000000E+20
 24
1.0000000000E+20
 34
1.0000000000E+20
 15
-1.0000000000E+20
 25
-1.0000000000E+20
 35
-1.0000000000E+20
146
0.0
 13
0.0
 23
0.0
 33
0.0
 16
1.0
 26
0.0
 36
0.0
 17
0.0
 27
1.0
 37
0.0
 76
     0
330
1B
  0
LAYOUT
  5
26
102
{ACAD_REACTORS
330
1A
102
}
330
1A
100
AcDbPlotSettings
  1

  2
none_device
  4

  6

 40
0.0
 41
0.0
 42
0.0
 43
0.0
 44
0.0
 45
0.0
 46
0.0
 47
0.0
 48
0.0
 49
0.0
140
0.0
141
0.0
142
1.0
143
1.0
 70
   688
 72
     1
 73
     0
 74
     5
  7

 75
    16
147
1.0
148
0.0
149
0.0
100
AcDbLayout
  1
Layout2
 70
     1
 71
     2
 10
0.0
 20
0.0
 11
0.0
 21
0.0
 12
0.0
 22
0.0
 32
0.0
 14
0.0
 24
0.0
 34
0.0
 15
0.0
 25
0.0
 35
0.0
146
0.0
 13
0.0
 23
0.0
 33
0.0
 16
1.0
 26
0.0
 36
0.0
 17
0.0
 27
1.0
 37
0.0
 76
     0
330
23
  0
LAYOUT
  5
22
102
{ACAD_REACTORS
330
1A
102
}
330
1A
100
AcDbPlotSettings
  1

  2
none_device
  4
Letter_(8.50_x_11.00_Inches)
  6

 40
6.35
 41
6.35
 42
6.35000508
 43
6.35000508
 44
215.9
 45
279.4
 46
0.0
 47
0.0
 48
0.0
 49
0.0
140
0.0
141
0.0
142
1.0
143
1.0
 70
  1712
 72
     1
 73
     0
 74
     0
  7

 75
     0
147
1.0
148
0.0
149
0.0
100
AcDbLayout
  1
Model
 70
     1
 71
     0
 10
0.0
 20
0.0
 11
279.4
 21
215.9
 12
0.0
 22
0.0
 32
0.0
 14
0.0
 24
0.0
 34
0.0
 15
279.4
 25
215.9
 35
0.0
146
0.0
 13
0.0
 23
0.0
 33
0.0
 16
1.0
 26
0.0
 36
0.0
 17
0.0
 27
1.0
 37
0.0
 76
     0
330
1F
331
29
  0
MLINESTYLE
  5
18
102
{ACAD_REACTORS
330
17
102
}
330
17
100
AcDbMlineStyle
  2
Standard
 70
     0
  3

 62
   256
 51
90.0
 52
90.0
 71
     2
 49
0.5
 62
   256
  6
BYLAYER
 49
-0.5
 62
   256
  6
BYLAYER
  0
ACDBPLACEHOLDER
  5
F
102
{ACAD_REACTORS
330
E
102
}
330
E
  0
SCALE
  5
48
102
{ACAD_REACTORS
330
47
102
}
330
47
100
AcDbScale
 70
     0
300
1:1
140
1.0
141
1.0
290
     1
  0
SCALE
  5
49
102
{ACAD_REACTORS
330
47
102
}
330
47
100
AcDbScale
 70
     0
300
1:2
140
1.0
141
2.0
290
     0
  0
SCALE
  5
4A
102
{ACAD_REACTORS
330
47
102
}
330
47
100
AcDbScale
 70
     0
300
1:4
140
1.0
141
4.0
290
     0
  0
SCALE
  5
4B
102
{ACAD_REACTORS
330
47
102
}
330
47
100
AcDbScale
 70
     0
300
1:5
140
1.0
141
5.0
290
     0
  0
SCALE
  5
4C
102
{ACAD_REACTORS
330
47
102
}
330
47
100
AcDbScale
 70
     0
300
1:8
140
1.0
141
8.0
290
     0
  0
SCALE
  5
4D
102
{ACAD_REACTORS
330
47
102
}
330
47
100
AcDbScale
 70
     0
300
1:10
140
1.0
141
10.0
290
     0
  0
SCALE
  5
4E
102
{ACAD_REACTORS
330
47
102
}
330
47
100
AcDbScale
 70
     0
300
1:16
140
1.0
141
16.0
290
     0
  0
SCALE
  5
4F
102
{ACAD_REACTORS
330
47
102
}
330
47
100
AcDbScale
 70
     0
300
1:20
140
1.0
141
20.0
290
     0
  0
SCALE
  5
50
102
{ACAD_REACTORS
330
47
102
}
330
47
100
AcDbScale
 70
     0
300
1:30
140
1.0
141
30.0
290
     0
  0
SCALE
  5
51
102
{ACAD_REACTORS
330
47
102
}
330
47
100
AcDbScale
 70
     0
300
1:40
140
1.0
141
40.0
290
     0
  0
SCALE
  5
52
102
{ACAD_REACTORS
330
47
102
}
330
47
100
AcDbScale
 70
     0
300
1:50
140
1.0
141
50.0
290
     0
  0
SCALE
  5
53
102
{ACAD_REACTORS
330
47
102
}
330
47
100
AcDbScale
 70
     0
300
1:100
140
1.0
141
100.0
290
     0
  0
SCALE
  5
54
102
{ACAD_REACTORS
330
47
102
}
330
47
100
AcDbScale
 70
     0
300
2:1
140
2.0
141
1.0
290
     0
  0
SCALE
  5
55
102
{ACAD_REACTORS
330
47
102
}
330
47
100
AcDbScale
 70
     0
300
4:1
140
4.0
141
1.0
290
     0
  0
SCALE
  5
56
102
{ACAD_REACTORS
330
47
102
}
330
47
100
AcDbScale
 70
     0
300
8:1
140
8.0
141
1.0
290
     0
  0
SCALE
  5
57
102
{ACAD_REACTORS
330
47
102
}
330
47
100
AcDbScale
 70
     0
300
10:1
140
10.0
141
1.0
290
     0
  0
SCALE
  5
58
102
{ACAD_REACTORS
330
47
102
}
330
47
100
AcDbScale
 70
     0
300
100:1
140
100.0
141
1.0
290
     0
  0
SCALE
  5
59
102
{ACAD_REACTORS
330
47
102
}
330
47
100
AcDbScale
 70
     0
300
1/128" = 1'-0"
140
0.0078125
141
12.0
290
     0
  0
SCALE
  5
5A
102
{ACAD_REACTORS
330
47
102
}
330
47
100
AcDbScale
 70
     0
300
1/64" = 1'-0"
140
0.015625
141
12.0
290
     0
  0
SCALE
  5
5B
102
{ACAD_REACTORS
330
47
102
}
330
47
100
AcDbScale
 70
     0
300
1/32" = 1'-0"
140
0.03125
141
12.0
290
     0
  0
SCALE
  5
5C
102
{ACAD_REACTORS
330
47
102
}
330
47
100
AcDbScale
 70
     0
300
1/16" = 1'-0"
140
0.0625
141
12.0
290
     0
  0
SCALE
  5
5D
102
{ACAD_REACTORS
330
47
102
}
330
47
100
AcDbScale
 70
     0
300
3/32" = 1'-0"
140
0.09375
141
12.0
290
     0
  0
SCALE
  5
5E
102
{ACAD_REACTORS
330
47
102
}
330
47
100
AcDbScale
 70
     0
300
1/8" = 1'-0"
140
0.125
141
12.0
290
     0
  0
SCALE
  5
5F
102
{ACAD_REACTORS
330
47
102
}
330
47
100
AcDbScale
 70
     0
300
3/16" = 1'-0"
140
0.1875
141
12.0
290
     0
  0
SCALE
  5
60
102
{ACAD_REACTORS
330
47
102
}
330
47
100
AcDbScale
 70
     0
300
1/4" = 1'-0"
140
0.25
141
12.0
290
     0
  0
SCALE
  5
61
102
{ACAD_REACTORS
330
47
102
}
330
47
100
AcDbScale
 70
     0
300
3/8" = 1'-0"
140
0.375
141
12.0
290
     0
  0
SCALE
  5
62
102
{ACAD_REACTORS
330
47
102
}
330
47
100
AcDbScale
 70
     0
300
1/2" = 1'-0"
140
0.5
141
12.0
290
     0
  0
SCALE
  5
63
102
{ACAD_REACTORS
330
47
102
}
330
47
100
AcDbScale
 70
     0
300
3/4" = 1'-0"
140
0.75
141
12.0
290
     0
  0
SCALE
  5
64
102
{ACAD_REACTORS
330
47
102
}
330
47
100
AcDbScale
 70
     0
300
1" = 1'-0"
140
1.0
141
12.0
290
     0
  0
SCALE
  5
65
102
{ACAD_REACTORS
330
47
102
}
330
47
100
AcDbScale
 70
     0
300
1-1/2" = 1'-0"
140
1.5
141
12.0
290
     0
  0
SCALE
  5
66
102
{ACAD_REACTORS
330
47
102
}
330
47
100
AcDbScale
 70
     0
300
3" = 1'-0"
140
3.0
141
12.0
290
     0
  0
SCALE
  5
67
102
{ACAD_REACTORS
330
47
102
}
330
47
100
AcDbScale
 70
     0
300
6" = 1'-0"
140
6.0
141
12.0
290
     0
  0
SCALE
  5
68
102
{ACAD_REACTORS
330
47
102
}
330
47
100
AcDbScale
 70
     0
300
1'-0" = 1'-0"
140
12.0
141
12.0
290
     0
  0
ENDSEC
  0
EOF
